Chords-book.com - chords, tabs, lyrics



No Doubt
Songs

.Interprets

.Songs

.Chords

.Chords-book.com
  Homepage
  New songs
Add song
  Contact


 
.Song : Donít speak
Donít speak



Hmi

|-----------------|----------------|----------------|---------------|

|--3---3---3---3--|-3---3---3---3--|-3---3---3---3--|3---3---3---3--|

|--4---4---4---4--|-4---4---4---4--|-4---4---4---4--|4---4---4---4--|

|----4---4---4---4|---4---4---4---4|---4---4---4---4|--4---4---4---4|

|-----------------|----------------|----------------|---------------|

|-----------------|----------------|----------------|---------------|



Hmi A Emi A Hmi Emi A H

|---------------|---------------|---------------|---------------|---------------|

|3---3---3---3--|2---2---0---0--|2---2---3---3--|0---0---2---2--|4--------------|

|4---4---4---4--|2---2---0---0--|2---2---4---4--|0---0---2---2--|4--------------|

|--4---4---4---4|--2---2---2---2|--2---2---4---4|--2---2---2---2|4--------------|

|---------------|---------------|---------------|---------------|---------------|

|---------------|---------------|---------------|---------------|---------------|





HmiYou and me A, we Emi used to be A together,

Hmievery day A together, Emi always. A

HmiI really A feel, that Iím Emi losing my A best friend,

HmiI canít believe this A could be Emi the end. A

HmiIt looks as A though Emi youíre letting A go

Hmiand if itís real then A I donít want to H know.



ģ: Emi Donít speak, Ami I know just what youíre Dsaying,

HSo please stop Ami explaining,

Ami Donít Dtell me ícause it Emi hurts. Ami, D

Donít speak, I know what youíre thinking,

I donít need your reasons,

Donít tell me ícause it hurts.



Our memories, they can be inviting,

But some are altogether mighty frightening,

As we die, both you and I,

With my head in my hands I sit and cry.



ģ: Emi, Dsus2, Emi, G



G Itís all F ending, we gotta stop pretending who we E7 are... (222434)



Hmi A Emi A

Hmi A Emi A

Hmi A Emi A

Hmi A Emi



You and me, I can see us dying, always.



ģ:

 


All lyrics, chords and tabs are property and copyright of their owners. All songs provided for educational purposes only. Everyone can add songs to Chord-book.com database using Add song

Chords-book.com - resource of lyrics, chords, tabs, songs...
(c) 2oo7 Chords-book.com